ISO-10303-21;
HEADER;
FILE_DESCRIPTION (( 'STEP AP203' ),
    '1' );
FILE_NAME ('End Cap SDR11_001 117 0140 0025.step',
    '2019-12-16T11:41:07',
    ( '' ),
    ( '' ),
    'SwSTEP 2.0',
    'SolidWorks 2019',
    '' );
FILE_SCHEMA (( 'CONFIG_CONTROL_DESIGN' ));
ENDSEC;

DATA;
#1 = CC_DESIGN_PERSON_AND_ORGANIZATION_ASSIGNMENT ( #82, #173, ( #128 ) ) ;
#2 = FACE_OUTER_BOUND ( 'NONE', #177, .T. ) ;
#3 = TOROIDAL_SURFACE ( 'NONE', #231, -2.371977862955180427, 37.49999999999999289 ) ;
#4 = AXIS2_PLACEMENT_3D ( 'NONE', #5, #95, #190 ) ;
#5 = CARTESIAN_POINT ( 'NONE',  ( 0.0000000000000000000, 43.02495876470483438, 0.0000000000000000000 ) ) ;
#6 = CARTESIAN_POINT ( 'NONE',  ( -1.127570259384924611E-14, 46.02495876470483438, 0.0000000000000000000 ) ) ;
#7 = AXIS2_PLACEMENT_3D ( 'NONE', #24, #115, #213 ) ;
#8 = COORDINATED_UNIVERSAL_TIME_OFFSET ( 3, 0, .AHEAD. ) ;
#9 = ORIENTED_EDGE ( 'NONE', *, *, #290, .T. ) ;
#10 = COORDINATED_UNIVERSAL_TIME_OFFSET ( 3, 0, .AHEAD. ) ;
#11 = VERTEX_POINT ( 'NONE', #255 ) ;
#12 = DATE_AND_TIME ( #225, #74 ) ;
#13 = AXIS2_PLACEMENT_3D ( 'NONE', #99, #194, #291 ) ;
#14 = EDGE_LOOP ( 'NONE', ( #15, #277, #79 ) ) ;
#15 = ORIENTED_EDGE ( 'NONE', *, *, #290, .F. ) ;
#16 = DIRECTION ( 'NONE',  ( -1.000000000000000000, 0.0000000000000000000, 0.0000000000000000000 ) ) ;
#17 = CARTESIAN_POINT ( 'NONE',  ( 0.0000000000000000000, 0.0000000000000000000, 0.0000000000000000000 ) ) ;
#18 = FACE_OUTER_BOUND ( 'NONE', #14, .T. ) ;
#19 = CARTESIAN_POINT ( 'NONE',  ( 0.0000000000000000000, 0.0000000000000000000, 0.0000000000000000000 ) ) ;
#20 = AXIS2_PLACEMENT_3D ( 'NONE', #25, #116, #216 ) ;
#21 = DIRECTION ( 'NONE',  ( 0.0000000000000000000, 0.0000000000000000000, -1.000000000000000000 ) ) ;
#22 = CIRCLE ( 'NONE', #7, 9.500000000000003553 ) ;
#23 = CC_DESIGN_PERSON_AND_ORGANIZATION_ASSIGNMENT ( #54, #145, ( #258 ) ) ;
#24 = CARTESIAN_POINT ( 'NONE',  ( 0.0000000000000000000, 0.0000000000000000000, 0.0000000000000000000 ) ) ;
#25 = CARTESIAN_POINT ( 'NONE',  ( 0.0000000000000000000, 0.0000000000000000000, 0.0000000000000000000 ) ) ;
#26 = AXIS2_PLACEMENT_3D ( 'NONE', #48, #139, #237 ) ;
#27 = AXIS2_PLACEMENT_3D ( 'NONE', #288, #72, #168 ) ;
#28 = CARTESIAN_POINT ( 'NONE',  ( 0.0000000000000000000, 40.99999999999999289, 0.0000000000000000000 ) ) ;
#29 = AXIS2_PLACEMENT_3D ( 'NONE', #136, #235, #21 ) ;
#30 = PRODUCT_RELATED_PRODUCT_CATEGORY ( 'detail', '', ( #258 ) ) ;
#31 = PERSON_AND_ORGANIZATION ( #191, #184 ) ;
#32 = VERTEX_POINT ( 'NONE', #39 ) ;
#33 = PERSON_AND_ORGANIZATION ( #191, #184 ) ;
#34 = ORIENTED_EDGE ( 'NONE', *, *, #204, .F. ) ;
#35 = PERSON_AND_ORGANIZATION_ROLE ( 'classification_officer' ) ;
#36 = ORIENTED_EDGE ( 'NONE', *, *, #229, .F. ) ;
#37 = CC_DESIGN_APPROVAL ( #53, ( #128 ) ) ;
#38 = ORIENTED_EDGE ( 'NONE', *, *, #253, .F. ) ;
#39 = CARTESIAN_POINT ( 'NONE',  ( 1.530808498934190930E-15, 43.02495876470483438, 12.49999999999999289 ) ) ;
#40 = DIRECTION ( 'NONE',  ( 0.0000000000000000000, 0.0000000000000000000, -1.000000000000000000 ) ) ;
#41 = EDGE_CURVE ( 'NONE', #294, #61, #215, .T. ) ;
#42 = LINE ( 'NONE', #133, #132 ) ;
#43 = VECTOR ( 'NONE', #187, 1000.000000000000000 ) ;
#44 = AXIS2_PLACEMENT_3D ( 'NONE', #287, #71, #167 ) ;
#45 = EDGE_CURVE ( 'NONE', #300, #11, #188, .T. ) ;
#46 = DIRECTION ( 'NONE',  ( 0.0000000000000000000, 0.0000000000000000000, -1.000000000000000000 ) ) ;
#47 = CYLINDRICAL_SURFACE ( 'NONE', #29, 12.49999999999999645 ) ;
#48 = CARTESIAN_POINT ( 'NONE',  ( 9.500000000000003553, 0.0000000000000000000, 0.0000000000000000000 ) ) ;
#49 = DIRECTION ( 'NONE',  ( 0.0000000000000000000, 0.0000000000000000000, -1.000000000000000000 ) ) ;
#50 = DIRECTION ( 'NONE',  ( 1.000000000000000000, 0.0000000000000000000, -1.224646799147353207E-16 ) ) ;
#51 = APPROVAL_PERSON_ORGANIZATION ( #31, #219, #221 ) ;
#52 = DIRECTION ( 'NONE',  ( -0.0000000000000000000, -1.000000000000000000, -0.0000000000000000000 ) ) ;
#53 = APPROVAL ( #124, 'BELÝRTÝLMEMÝÞ' ) ;
#54 = PERSON_AND_ORGANIZATION ( #191, #184 ) ;
#55 = AXIS2_PLACEMENT_3D ( 'NONE', #283, #67, #162 ) ;
#56 = CALENDAR_DATE ( 2019, 16, 12 ) ;
#57 = EDGE_LOOP ( 'NONE', ( #176, #276 ) ) ;
#58 = PERSON_AND_ORGANIZATION_ROLE ( 'design_supplier' ) ;
#59 = EDGE_LOOP ( 'NONE', ( #203, #63, #106, #104 ) ) ;
#60 = DATE_AND_TIME ( #275, #114 ) ;
#61 = VERTEX_POINT ( 'NONE', #179 ) ;
#62 = CIRCLE ( 'NONE', #55, 9.499999999999996447 ) ;
#63 = ORIENTED_EDGE ( 'NONE', *, *, #284, .T. ) ;
#64 = CYLINDRICAL_SURFACE ( 'NONE', #159, 12.49999999999999645 ) ;
#65 = DIRECTION ( 'NONE',  ( -0.0000000000000000000, -1.000000000000000000, -0.0000000000000000000 ) ) ;
#66 = LINE ( 'NONE', #135, #94 ) ;
#67 = DIRECTION ( 'NONE',  ( -0.0000000000000000000, -1.000000000000000000, -0.0000000000000000000 ) ) ;
#68 = FACE_OUTER_BOUND ( 'NONE', #57, .T. ) ;
#69 = VECTOR ( 'NONE', #185, 1000.000000000000000 ) ;
#70 = DIRECTION ( 'NONE',  ( -0.0000000000000000000, -1.000000000000000000, -0.0000000000000000000 ) ) ;
#71 = DIRECTION ( 'NONE',  ( 1.000000000000000000, 0.0000000000000000000, -1.224646799147353207E-16 ) ) ;
#72 = DIRECTION ( 'NONE',  ( -0.0000000000000000000, -1.000000000000000000, -0.0000000000000000000 ) ) ;
#73 = AXIS2_PLACEMENT_3D ( 'NONE', #19, #112, #209 ) ;
#74 = LOCAL_TIME ( 14, 41, 7.000000000000000000, #126 ) ;
#75 =( NAMED_UNIT ( * ) SI_UNIT ( $, .STERADIAN. ) SOLID_ANGLE_UNIT ( ) );
#76 = ADVANCED_FACE ( 'NONE', ( #280 ), #64, .T. ) ;
#77 = MECHANICAL_CONTEXT ( 'NONE', #193, 'mechanical' ) ;
#78 = PERSON_AND_ORGANIZATION ( #191, #184 ) ;
#79 = ORIENTED_EDGE ( 'NONE', *, *, #236, .T. ) ;
#80 = CIRCLE ( 'NONE', #73, 9.500000000000003553 ) ;
#81 = AXIS2_PLACEMENT_3D ( 'NONE', #266, #50, #142 ) ;
#82 = PERSON_AND_ORGANIZATION ( #191, #184 ) ;
#83 = ORIENTED_EDGE ( 'NONE', *, *, #292, .T. ) ;
#84 = APPROVAL_ROLE ( '' ) ;
#85 = ORIENTED_EDGE ( 'NONE', *, *, #253, .T. ) ;
#86 = VERTEX_POINT ( 'NONE', #131 ) ;
#87 = DIRECTION ( 'NONE',  ( 0.0000000000000000000, 0.0000000000000000000, 1.000000000000000000 ) ) ;
#88 = APPROVAL ( #298, 'BELÝRTÝLMEMÝÞ' ) ;
#89 = PRODUCT_DEFINITION_SHAPE ( 'NONE', 'NONE',  #278 ) ;
#90 = DIRECTION ( 'NONE',  ( -0.0000000000000000000, -1.000000000000000000, -0.0000000000000000000 ) ) ;
#91 = CARTESIAN_POINT ( 'NONE',  ( 0.0000000000000000000, 0.0000000000000000000, -9.500000000000000000 ) ) ;
#92 = CC_DESIGN_APPROVAL ( #219, ( #278 ) ) ;
#93 = CIRCLE ( 'NONE', #4, 12.49999999999999289 ) ;
#94 = VECTOR ( 'NONE', #234, 1000.000000000000000 ) ;
#95 = DIRECTION ( 'NONE',  ( -0.0000000000000000000, -1.000000000000000000, -0.0000000000000000000 ) ) ;
#96 = FACE_OUTER_BOUND ( 'NONE', #224, .T. ) ;
#97 =( NAMED_UNIT ( * ) PLANE_ANGLE_UNIT ( ) SI_UNIT ( $, .RADIAN. ) );
#98 = AXIS2_PLACEMENT_3D ( 'NONE', #161, #261, #46 ) ;
#99 = CARTESIAN_POINT ( 'NONE',  ( 0.0000000000000000000, 0.0000000000000000000, 0.0000000000000000000 ) ) ;
#100 = CALENDAR_DATE ( 2019, 16, 12 ) ;
#101 = ORIENTED_EDGE ( 'NONE', *, *, #307, .T. ) ;
#102 = AXIS2_PLACEMENT_3D ( 'NONE', #189, #265, #49 ) ;
#103 = CALENDAR_DATE ( 2019, 16, 12 ) ;
#104 = ORIENTED_EDGE ( 'NONE', *, *, #269, .F. ) ;
#105 = DATE_TIME_ROLE ( 'classification_date' ) ;
#106 = ORIENTED_EDGE ( 'NONE', *, *, #204, .T. ) ;
#107 = VERTEX_POINT ( 'NONE', #232 ) ;
#108 = CC_DESIGN_DATE_AND_TIME_ASSIGNMENT ( #146, #245, ( #278 ) ) ;
#109 = DIRECTION ( 'NONE',  ( 0.0000000000000000000, 0.0000000000000000000, 1.000000000000000000 ) ) ;
#110 = TOROIDAL_SURFACE ( 'NONE', #98, -2.371977862955180427, 37.49999999999999289 ) ;
#111 = DIRECTION ( 'NONE',  ( -0.0000000000000000000, -1.000000000000000000, -0.0000000000000000000 ) ) ;
#112 = DIRECTION ( 'NONE',  ( -0.0000000000000000000, -1.000000000000000000, -0.0000000000000000000 ) ) ;
#113 = LINE ( 'NONE', #211, #43 ) ;
#114 = LOCAL_TIME ( 14, 41, 7.000000000000000000, #175 ) ;
#115 = DIRECTION ( 'NONE',  ( -0.0000000000000000000, -1.000000000000000000, -0.0000000000000000000 ) ) ;
#116 = DIRECTION ( 'NONE',  ( -0.0000000000000000000, -1.000000000000000000, -0.0000000000000000000 ) ) ;
#117 = AXIS2_PLACEMENT_3D ( 'NONE', #304, #90, #183 ) ;
#118 = AXIS2_PLACEMENT_3D ( 'NONE', #28, #119, #218 ) ;
#119 = DIRECTION ( 'NONE',  ( -0.0000000000000000000, -1.000000000000000000, -0.0000000000000000000 ) ) ;
#120 =( LENGTH_UNIT ( ) NAMED_UNIT ( * ) SI_UNIT ( .MILLI., .METRE. ) );
#121 = TOROIDAL_SURFACE ( 'NONE', #117, -2.371977862955180427, 34.50652914197718246 ) ;
#122 = APPROVAL_STATUS ( 'not_yet_approved' ) ;
#123 = ORIENTED_EDGE ( 'NONE', *, *, #307, .F. ) ;
#124 = APPROVAL_STATUS ( 'not_yet_approved' ) ;
#125 = ORIENTED_EDGE ( 'NONE', *, *, #45, .F. ) ;
#126 = COORDINATED_UNIVERSAL_TIME_OFFSET ( 3, 0, .AHEAD. ) ;
#127 = ORIENTED_EDGE ( 'NONE', *, *, #180, .F. ) ;
#128 = PRODUCT_DEFINITION_FORMATION_WITH_SPECIFIED_SOURCE ( 'HERHANGÝ', '', #258, .NOT_KNOWN. ) ;
#129 = ORIENTED_EDGE ( 'NONE', *, *, #214, .F. ) ;
#130 = EDGE_CURVE ( 'NONE', #150, #244, #164, .T. ) ;
#131 = CARTESIAN_POINT ( 'NONE',  ( 1.163414459189986077E-15, 0.0000000000000000000, 9.500000000000003553 ) ) ;
#132 = VECTOR ( 'NONE', #233, 1000.000000000000000 ) ;
#133 = CARTESIAN_POINT ( 'NONE',  ( 1.163414459189985485E-15, 0.0000000000000000000, 9.500000000000000000 ) ) ;
#134 = ADVANCED_BREP_SHAPE_REPRESENTATION ( 'End Cap SDR11_001 117 0140 0025', ( #279, #13 ), #282 ) ;
#135 = CARTESIAN_POINT ( 'NONE',  ( 0.0000000000000000000, 0.0000000000000000000, -12.49999999999999645 ) ) ;
#136 = CARTESIAN_POINT ( 'NONE',  ( 0.0000000000000000000, 0.0000000000000000000, 0.0000000000000000000 ) ) ;
#137 = AXIS2_PLACEMENT_3D ( 'NONE', #281, #65, #158 ) ;
#138 = CC_DESIGN_DATE_AND_TIME_ASSIGNMENT ( #12, #105, ( #210 ) ) ;
#139 = DIRECTION ( 'NONE',  ( 0.0000000000000000000, -1.000000000000000000, -0.0000000000000000000 ) ) ;
#140 = FACE_OUTER_BOUND ( 'NONE', #271, .T. ) ;
#141 = TOROIDAL_SURFACE ( 'NONE', #137, -2.371977862955180427, 34.50652914197718246 ) ;
#142 = DIRECTION ( 'NONE',  ( -1.224646799147353207E-16, 0.0000000000000000000, -1.000000000000000000 ) ) ;
#143 = DIRECTION ( 'NONE',  ( 0.0000000000000000000, 0.0000000000000000000, -1.000000000000000000 ) ) ;
#144 = APPLICATION_PROTOCOL_DEFINITION ( 'international standard', 'config_control_design', 1994, #193 ) ;
#145 = PERSON_AND_ORGANIZATION_ROLE ( 'design_owner' ) ;
#146 = DATE_AND_TIME ( #56, #268 ) ;
#147 = ORIENTED_EDGE ( 'NONE', *, *, #130, .F. ) ;
#148 = ADVANCED_FACE ( 'NONE', ( #302 ), #141, .F. ) ;
#149 = SECURITY_CLASSIFICATION_LEVEL ( 'unclassified' ) ;
#150 = VERTEX_POINT ( 'NONE', #181 ) ;
#151 = APPROVAL_DATE_TIME ( #60, #88 ) ;
#152 = VERTEX_POINT ( 'NONE', #259 ) ;
#153 = AXIS2_PLACEMENT_3D ( 'NONE', #17, #111, #207 ) ;
#154 = CC_DESIGN_SECURITY_CLASSIFICATION ( #210, ( #128 ) ) ;
#155 = ORIENTED_EDGE ( 'NONE', *, *, #45, .T. ) ;
#156 = CARTESIAN_POINT ( 'NONE',  ( 0.0000000000000000000, 0.0000000000000000000, 0.0000000000000000000 ) ) ;
#157 = UNCERTAINTY_MEASURE_WITH_UNIT (LENGTH_MEASURE( 1.000000000000000082E-05 ), #120, 'distance_accuracy_value', 'NONE');
#158 = DIRECTION ( 'NONE',  ( 0.0000000000000000000, 0.0000000000000000000, -1.000000000000000000 ) ) ;
#159 = AXIS2_PLACEMENT_3D ( 'NONE', #156, #257, #40 ) ;
#160 = CIRCLE ( 'NONE', #200, 12.49999999999999289 ) ;
#161 = CARTESIAN_POINT ( 'NONE',  ( 0.0000000000000000000, 8.600051002391642996, 0.0000000000000000000 ) ) ;
#162 = DIRECTION ( 'NONE',  ( 0.0000000000000000000, 0.0000000000000000000, -1.000000000000000000 ) ) ;
#163 = CC_DESIGN_PERSON_AND_ORGANIZATION_ASSIGNMENT ( #78, #170, ( #278 ) ) ;
#164 = CIRCLE ( 'NONE', #153, 12.50000000000000178 ) ;
#165 = FACE_BOUND ( 'NONE', #296, .T. ) ;
#166 = DIRECTION ( 'NONE',  ( 0.0000000000000000000, 0.0000000000000000000, -1.000000000000000000 ) ) ;
#167 = DIRECTION ( 'NONE',  ( -1.224646799147352714E-16, 0.0000000000000000000, -1.000000000000000000 ) ) ;
#168 = DIRECTION ( 'NONE',  ( 0.0000000000000000000, 0.0000000000000000000, -1.000000000000000000 ) ) ;
#169 = LOCAL_TIME ( 14, 41, 7.000000000000000000, #10 ) ;
#170 = PERSON_AND_ORGANIZATION_ROLE ( 'creator' ) ;
#171 = ORIENTED_EDGE ( 'NONE', *, *, #242, .T. ) ;
#172 = CIRCLE ( 'NONE', #44, 34.50652914197718957 ) ;
#173 = PERSON_AND_ORGANIZATION_ROLE ( 'creator' ) ;
#174 = ORIENTED_EDGE ( 'NONE', *, *, #180, .T. ) ;
#175 = COORDINATED_UNIVERSAL_TIME_OFFSET ( 3, 0, .AHEAD. ) ;
#176 = ORIENTED_EDGE ( 'NONE', *, *, #130, .T. ) ;
#177 = EDGE_LOOP ( 'NONE', ( #197, #155, #249 ) ) ;
#178 = AXIS2_PLACEMENT_3D ( 'NONE', #205, #301, #87 ) ;
#179 = CARTESIAN_POINT ( 'NONE',  ( 0.0000000000000000000, 40.99999999999999289, -9.499999999999996447 ) ) ;
#180 = EDGE_CURVE ( 'NONE', #107, #86, #42, .T. ) ;
#181 = CARTESIAN_POINT ( 'NONE',  ( 0.0000000000000000000, 0.0000000000000000000, -12.50000000000000178 ) ) ;
#182 = ADVANCED_FACE ( 'NONE', ( #18 ), #121, .F. ) ;
#183 = DIRECTION ( 'NONE',  ( 0.0000000000000000000, 0.0000000000000000000, -1.000000000000000000 ) ) ;
#184 = ORGANIZATION ( 'BELÝRTÝLMEMÝÞ', 'BELÝRTÝLMEMÝÞ', '' ) ;
#185 = DIRECTION ( 'NONE',  ( -0.0000000000000000000, -1.000000000000000000, -0.0000000000000000000 ) ) ;
#186 = ADVANCED_FACE ( 'NONE', ( #208 ), #110, .T. ) ;
#187 = DIRECTION ( 'NONE',  ( -0.0000000000000000000, -1.000000000000000000, -0.0000000000000000000 ) ) ;
#188 = CIRCLE ( 'NONE', #178, 37.49999999999999289 ) ;
#189 = CARTESIAN_POINT ( 'NONE',  ( 0.0000000000000000000, 0.0000000000000000000, 0.0000000000000000000 ) ) ;
#190 = DIRECTION ( 'NONE',  ( 0.0000000000000000000, 0.0000000000000000000, -1.000000000000000000 ) ) ;
#191 = PERSON ( 'BELÝRTÝLMEMÝÞ', 'BELÝRTÝLMEMÝÞ', 'BELÝRTÝLMEMÝÞ', ('BELÝRTÝLMEMÝÞ'), ('BELÝRTÝLMEMÝÞ'), ('BELÝRTÝLMEMÝÞ') ) ;
#192 = CYLINDRICAL_SURFACE ( 'NONE', #27, 9.500000000000000000 ) ;
#193 = APPLICATION_CONTEXT ( 'configuration controlled 3d designs of mechanical parts and assemblies' ) ;
#194 = DIRECTION ( 'NONE',  ( 0.0000000000000000000, 0.0000000000000000000, 1.000000000000000000 ) ) ;
#195 = CC_DESIGN_PERSON_AND_ORGANIZATION_ASSIGNMENT ( #248, #35, ( #210 ) ) ;
#196 = DATE_AND_TIME ( #100, #227 ) ;
#197 = ORIENTED_EDGE ( 'NONE', *, *, #292, .F. ) ;
#198 = DATE_AND_TIME ( #103, #169 ) ;
#199 = ORIENTED_EDGE ( 'NONE', *, *, #297, .F. ) ;
#200 = AXIS2_PLACEMENT_3D ( 'NONE', #267, #52, #143 ) ;
#201 = PERSON_AND_ORGANIZATION ( #191, #184 ) ;
#202 = ORIENTED_EDGE ( 'NONE', *, *, #229, .T. ) ;
#203 = ORIENTED_EDGE ( 'NONE', *, *, #242, .F. ) ;
#204 = EDGE_CURVE ( 'NONE', #11, #150, #66, .T. ) ;
#205 = CARTESIAN_POINT ( 'NONE',  ( 0.0000000000000000000, 8.600051002391642996, 2.371977862955180427 ) ) ;
#206 = AXIS2_PLACEMENT_3D ( 'NONE', #230, #16, #109 ) ;
#207 = DIRECTION ( 'NONE',  ( 0.0000000000000000000, 0.0000000000000000000, -1.000000000000000000 ) ) ;
#208 = FACE_OUTER_BOUND ( 'NONE', #252, .T. ) ;
#209 = DIRECTION ( 'NONE',  ( 0.0000000000000000000, 0.0000000000000000000, -1.000000000000000000 ) ) ;
#210 = SECURITY_CLASSIFICATION ( '', '', #149 ) ;
#211 = CARTESIAN_POINT ( 'NONE',  ( 1.530808498934191127E-15, 0.0000000000000000000, 12.49999999999999645 ) ) ;
#212 = APPLICATION_CONTEXT ( 'configuration controlled 3d designs of mechanical parts and assemblies' ) ;
#213 = DIRECTION ( 'NONE',  ( 0.0000000000000000000, 0.0000000000000000000, -1.000000000000000000 ) ) ;
#214 = EDGE_CURVE ( 'NONE', #86, #152, #80, .T. ) ;
#215 = CIRCLE ( 'NONE', #206, 34.50652914197718957 ) ;
#216 = DIRECTION ( 'NONE',  ( 0.0000000000000000000, 0.0000000000000000000, -1.000000000000000000 ) ) ;
#217 = CIRCLE ( 'NONE', #81, 37.49999999999999289 ) ;
#218 = DIRECTION ( 'NONE',  ( 0.0000000000000000000, 0.0000000000000000000, -1.000000000000000000 ) ) ;
#219 = APPROVAL ( #122, 'BELÝRTÝLMEMÝÞ' ) ;
#220 = CLOSED_SHELL ( 'NONE', ( #148, #186, #240, #303, #272, #247, #76, #263, #182 ) ) ;
#221 = APPROVAL_ROLE ( '' ) ;
#222 = ORIENTED_EDGE ( 'NONE', *, *, #297, .T. ) ;
#223 = APPROVAL_ROLE ( '' ) ;
#224 = EDGE_LOOP ( 'NONE', ( #199, #174, #274, #36 ) ) ;
#225 = CALENDAR_DATE ( 2019, 16, 12 ) ;
#226 = ORIENTED_EDGE ( 'NONE', *, *, #236, .F. ) ;
#227 = LOCAL_TIME ( 14, 41, 7.000000000000000000, #8 ) ;
#228 = EDGE_LOOP ( 'NONE', ( #101, #171, #147, #34 ) ) ;
#229 = EDGE_CURVE ( 'NONE', #61, #152, #305, .T. ) ;
#230 = CARTESIAN_POINT ( 'NONE',  ( 0.0000000000000000000, 8.600051002391642996, 2.371977862955180427 ) ) ;
#231 = AXIS2_PLACEMENT_3D ( 'NONE', #286, #70, #166 ) ;
#232 = CARTESIAN_POINT ( 'NONE',  ( 1.163414459189985288E-15, 40.99999999999999289, 9.499999999999996447 ) ) ;
#233 = DIRECTION ( 'NONE',  ( -0.0000000000000000000, -1.000000000000000000, -0.0000000000000000000 ) ) ;
#234 = DIRECTION ( 'NONE',  ( -0.0000000000000000000, -1.000000000000000000, -0.0000000000000000000 ) ) ;
#235 = DIRECTION ( 'NONE',  ( -0.0000000000000000000, -1.000000000000000000, -0.0000000000000000000 ) ) ;
#236 = EDGE_CURVE ( 'NONE', #61, #107, #62, .T. ) ;
#237 = DIRECTION ( 'NONE',  ( 0.0000000000000000000, 0.0000000000000000000, -1.000000000000000000 ) ) ;
#238 = CIRCLE ( 'NONE', #102, 12.50000000000000178 ) ;
#239 = CYLINDRICAL_SURFACE ( 'NONE', #20, 9.500000000000000000 ) ;
#240 = ADVANCED_FACE ( 'NONE', ( #262 ), #47, .T. ) ;
#241 = CARTESIAN_POINT ( 'NONE',  ( -7.293796174438268135E-15, 43.02495876470483438, 0.0000000000000000000 ) ) ;
#242 = EDGE_CURVE ( 'NONE', #32, #244, #113, .T. ) ;
#243 = APPLICATION_PROTOCOL_DEFINITION ( 'international standard', 'config_control_design', 1994, #212 ) ;
#244 = VERTEX_POINT ( 'NONE', #285 ) ;
#245 = DATE_TIME_ROLE ( 'creation_date' ) ;
#246 = ORIENTED_EDGE ( 'NONE', *, *, #41, .F. ) ;
#247 = ADVANCED_FACE ( 'NONE', ( #68, #165 ), #264, .T. ) ;
#248 = PERSON_AND_ORGANIZATION ( #191, #184 ) ;
#249 = ORIENTED_EDGE ( 'NONE', *, *, #284, .F. ) ;
#250 = DESIGN_CONTEXT ( 'detailed design', #212, 'design' ) ;
#251 = SHAPE_DEFINITION_REPRESENTATION ( #89, #134 ) ;
#252 = EDGE_LOOP ( 'NONE', ( #125, #83, #123 ) ) ;
#253 = EDGE_CURVE ( 'NONE', #152, #86, #22, .T. ) ;
#254 = APPROVAL_PERSON_ORGANIZATION ( #201, #88, #84 ) ;
#255 = CARTESIAN_POINT ( 'NONE',  ( 0.0000000000000000000, 43.02495876470483438, -12.49999999999999289 ) ) ;
#256 = CC_DESIGN_PERSON_AND_ORGANIZATION_ASSIGNMENT ( #273, #58, ( #128 ) ) ;
#257 = DIRECTION ( 'NONE',  ( -0.0000000000000000000, -1.000000000000000000, -0.0000000000000000000 ) ) ;
#258 = PRODUCT ( 'End Cap SDR11_001 117 0140 0025', 'End Cap SDR11_001 117 0140 0025', '', ( #77 ) ) ;
#259 = CARTESIAN_POINT ( 'NONE',  ( 0.0000000000000000000, 0.0000000000000000000, -9.500000000000003553 ) ) ;
#260 = CIRCLE ( 'NONE', #118, 9.499999999999996447 ) ;
#261 = DIRECTION ( 'NONE',  ( -0.0000000000000000000, -1.000000000000000000, -0.0000000000000000000 ) ) ;
#262 = FACE_OUTER_BOUND ( 'NONE', #228, .T. ) ;
#263 = ADVANCED_FACE ( 'NONE', ( #2 ), #3, .T. ) ;
#264 = PLANE ( 'NONE',  #26 ) ;
#265 = DIRECTION ( 'NONE',  ( -0.0000000000000000000, -1.000000000000000000, -0.0000000000000000000 ) ) ;
#266 = CARTESIAN_POINT ( 'NONE',  ( -2.904835097516440531E-16, 8.600051002391642996, -2.371977862955180427 ) ) ;
#267 = CARTESIAN_POINT ( 'NONE',  ( 0.0000000000000000000, 43.02495876470483438, 0.0000000000000000000 ) ) ;
#268 = LOCAL_TIME ( 14, 41, 7.000000000000000000, #270 ) ;
#269 = EDGE_CURVE ( 'NONE', #244, #150, #238, .T. ) ;
#270 = COORDINATED_UNIVERSAL_TIME_OFFSET ( 3, 0, .AHEAD. ) ;
#271 = EDGE_LOOP ( 'NONE', ( #127, #226, #202, #85 ) ) ;
#272 = ADVANCED_FACE ( 'NONE', ( #140 ), #239, .F. ) ;
#273 = PERSON_AND_ORGANIZATION ( #191, #184 ) ;
#274 = ORIENTED_EDGE ( 'NONE', *, *, #214, .T. ) ;
#275 = CALENDAR_DATE ( 2019, 16, 12 ) ;
#276 = ORIENTED_EDGE ( 'NONE', *, *, #269, .T. ) ;
#277 = ORIENTED_EDGE ( 'NONE', *, *, #41, .T. ) ;
#278 = PRODUCT_DEFINITION ( 'BÝLÝNMEYEN', '', #128, #250 ) ;
#279 = MANIFOLD_SOLID_BREP ( 'Döndür1', #220 ) ;
#280 = FACE_OUTER_BOUND ( 'NONE', #59, .T. ) ;
#281 = CARTESIAN_POINT ( 'NONE',  ( 0.0000000000000000000, 8.600051002391642996, 0.0000000000000000000 ) ) ;
#282 =( GEOMETRIC_REPRESENTATION_CONTEXT ( 3 ) GLOBAL_UNCERTAINTY_ASSIGNED_CONTEXT ( ( #157 ) ) GLOBAL_UNIT_ASSIGNED_CONTEXT ( ( #120, #97, #75 ) ) REPRESENTATION_CONTEXT ( 'NONE', 'WORKASPACE' ) );
#283 = CARTESIAN_POINT ( 'NONE',  ( 0.0000000000000000000, 40.99999999999999289, 0.0000000000000000000 ) ) ;
#284 = EDGE_CURVE ( 'NONE', #32, #11, #93, .T. ) ;
#285 = CARTESIAN_POINT ( 'NONE',  ( 1.530808498934191916E-15, 0.0000000000000000000, 12.50000000000000178 ) ) ;
#286 = CARTESIAN_POINT ( 'NONE',  ( 0.0000000000000000000, 8.600051002391642996, 0.0000000000000000000 ) ) ;
#287 = CARTESIAN_POINT ( 'NONE',  ( -2.904835097516440531E-16, 8.600051002391642996, -2.371977862955180427 ) ) ;
#288 = CARTESIAN_POINT ( 'NONE',  ( 0.0000000000000000000, 0.0000000000000000000, 0.0000000000000000000 ) ) ;
#289 = CC_DESIGN_APPROVAL ( #88, ( #210 ) ) ;
#290 = EDGE_CURVE ( 'NONE', #294, #107, #172, .T. ) ;
#291 = DIRECTION ( 'NONE',  ( 1.000000000000000000, 0.0000000000000000000, 0.0000000000000000000 ) ) ;
#292 = EDGE_CURVE ( 'NONE', #300, #32, #217, .T. ) ;
#293 = APPROVAL_DATE_TIME ( #196, #219 ) ;
#294 = VERTEX_POINT ( 'NONE', #241 ) ;
#295 = APPROVAL_DATE_TIME ( #198, #53 ) ;
#296 = EDGE_LOOP ( 'NONE', ( #38, #129 ) ) ;
#297 = EDGE_CURVE ( 'NONE', #107, #61, #260, .T. ) ;
#298 = APPROVAL_STATUS ( 'not_yet_approved' ) ;
#299 = EDGE_LOOP ( 'NONE', ( #246, #9, #222 ) ) ;
#300 = VERTEX_POINT ( 'NONE', #6 ) ;
#301 = DIRECTION ( 'NONE',  ( -1.000000000000000000, 0.0000000000000000000, 0.0000000000000000000 ) ) ;
#302 = FACE_OUTER_BOUND ( 'NONE', #299, .T. ) ;
#303 = ADVANCED_FACE ( 'NONE', ( #96 ), #192, .F. ) ;
#304 = CARTESIAN_POINT ( 'NONE',  ( 0.0000000000000000000, 8.600051002391642996, 0.0000000000000000000 ) ) ;
#305 = LINE ( 'NONE', #91, #69 ) ;
#306 = APPROVAL_PERSON_ORGANIZATION ( #33, #53, #223 ) ;
#307 = EDGE_CURVE ( 'NONE', #11, #32, #160, .T. ) ;
ENDSEC;
END-ISO-10303-21;
